ISO-10303-21;
HEADER;
FILE_DESCRIPTION (( 'STEP AP203' ),
    '1' );
FILE_NAME ('Q-OZHWP-R2-25.4-2020-M.STEP',
    '2020-12-22T09:18:19',
    ( '' ),
    ( '' ),
    'SwSTEP 2.0',
    'SolidWorks 2020',
    '' );
FILE_SCHEMA (( 'CONFIG_CONTROL_DESIGN' ));
ENDSEC;

DATA;
#1 =( LENGTH_UNIT ( ) NAMED_UNIT ( * ) SI_UNIT ( .MILLI., .METRE. ) );
#2 = DIRECTION ( 'NONE',  ( -1.000000000000000000, -0.000000000000000000, -0.000000000000000000 ) ) ;
#3 = ADVANCED_FACE ( 'NONE', ( #24 ), #114, .T. ) ;
#4 = PERSON_AND_ORGANIZATION ( #89, #116 ) ;
#5 = CALENDAR_DATE ( 2020, 22, 12 ) ;
#6 = APPROVAL_PERSON_ORGANIZATION ( #4, #115, #62 ) ;
#7 = AXIS2_PLACEMENT_3D ( 'NONE', #36, #27, #120 ) ;
#8 = DATE_AND_TIME ( #56, #169 ) ;
#9 = APPROVAL_STATUS ( 'not_yet_approved' ) ;
#10 = APPROVAL_DATE_TIME ( #140, #130 ) ;
#11 = ORIENTED_EDGE ( 'NONE', *, *, #37, .T. ) ;
#12 = ORIENTED_EDGE ( 'NONE', *, *, #46, .T. ) ;
#13 = DATE_TIME_ROLE ( 'creation_date' ) ;
#14 = AXIS2_PLACEMENT_3D ( 'NONE', #157, #101, #111 ) ;
#15 = ORIENTED_EDGE ( 'NONE', *, *, #75, .F. ) ;
#16 = AXIS2_PLACEMENT_3D ( 'NONE', #123, #94, #104 ) ;
#17 = DIRECTION ( 'NONE',  ( -1.000000000000000000, -0.000000000000000000, -0.000000000000000000 ) ) ;
#18 = DIRECTION ( 'NONE',  ( -1.000000000000000000, -0.000000000000000000, -0.000000000000000000 ) ) ;
#19 = AXIS2_PLACEMENT_3D ( 'NONE', #55, #2, #28 ) ;
#20 = CC_DESIGN_PERSON_AND_ORGANIZATION_ASSIGNMENT ( #165, #125, ( #144 ) ) ;
#21 = CALENDAR_DATE ( 2020, 22, 12 ) ;
#22 = VERTEX_POINT ( 'NONE', #160 ) ;
#23 = COORDINATED_UNIVERSAL_TIME_OFFSET ( 8, 0, .AHEAD. ) ;
#24 = FACE_OUTER_BOUND ( 'NONE', #129, .T. ) ;
#25 = CYLINDRICAL_SURFACE ( 'NONE', #151, 12.69999999999999929 ) ;
#26 = CARTESIAN_POINT ( 'NONE',  ( 3.000000000000001776, 0.000000000000000000, 12.69999999999999929 ) ) ;
#27 = DIRECTION ( 'NONE',  ( -1.000000000000000000, -0.000000000000000000, -0.000000000000000000 ) ) ;
#28 = DIRECTION ( 'NONE',  ( 0.000000000000000000, 0.000000000000000000, 1.000000000000000000 ) ) ;
#29 = COORDINATED_UNIVERSAL_TIME_OFFSET ( 8, 0, .AHEAD. ) ;
#30 = APPROVAL_ROLE ( '' ) ;
#31 = CC_DESIGN_APPROVAL ( #119, ( #113 ) ) ;
#32 = CALENDAR_DATE ( 2020, 22, 12 ) ;
#33 = CARTESIAN_POINT ( 'NONE',  ( -3.000000000000001776, 1.555301434917138433E-15, -12.69999999999999929 ) ) ;
#34 = DIRECTION ( 'NONE',  ( 1.000000000000000000, 0.000000000000000000, 0.000000000000000000 ) ) ;
#35 = CLOSED_SHELL ( 'NONE', ( #134, #3, #66, #77 ) ) ;
#36 = CARTESIAN_POINT ( 'NONE',  ( 3.000000000000001776, 0.000000000000000000, 0.000000000000000000 ) ) ;
#37 = EDGE_CURVE ( 'NONE', #22, #38, #78, .T. ) ;
#38 = VERTEX_POINT ( 'NONE', #33 ) ;
#39 = EDGE_LOOP ( 'NONE', ( #90, #173, #126, #61 ) ) ;
#40 = LOCAL_TIME ( 17, 18, 19.00000000000000000, #23 ) ;
#41 = AXIS2_PLACEMENT_3D ( 'NONE', #79, #92, #133 ) ;
#42 = FACE_OUTER_BOUND ( 'NONE', #145, .T. ) ;
#43 = CARTESIAN_POINT ( 'NONE',  ( 3.000000000000000888, 12.69999999999999929, 0.000000000000000000 ) ) ;
#44 = CC_DESIGN_DATE_AND_TIME_ASSIGNMENT ( #110, #13, ( #80 ) ) ;
#45 = APPROVAL_STATUS ( 'not_yet_approved' ) ;
#46 = EDGE_CURVE ( 'NONE', #131, #103, #156, .T. ) ;
#47 = APPROVAL_STATUS ( 'not_yet_approved' ) ;
#48 = DIRECTION ( 'NONE',  ( 0.000000000000000000, 0.000000000000000000, 1.000000000000000000 ) ) ;
#49 = ORIENTED_EDGE ( 'NONE', *, *, #46, .F. ) ;
#50 = ORIENTED_EDGE ( 'NONE', *, *, #105, .F. ) ;
#51 = ORIENTED_EDGE ( 'NONE', *, *, #158, .T. ) ;
#52 = DESIGN_CONTEXT ( 'detailed design', #147, 'design' ) ;
#53 = DIRECTION ( 'NONE',  ( -1.000000000000000000, 0.000000000000000000, -0.000000000000000000 ) ) ;
#54 = CC_DESIGN_APPROVAL ( #130, ( #84 ) ) ;
#55 = CARTESIAN_POINT ( 'NONE',  ( 3.000000000000001776, 0.000000000000000000, 0.000000000000000000 ) ) ;
#56 = CALENDAR_DATE ( 2020, 22, 12 ) ;
#57 = APPLICATION_PROTOCOL_DEFINITION ( 'international standard', 'config_control_design', 1994, #147 ) ;
#58 = PERSON_AND_ORGANIZATION_ROLE ( 'creator' ) ;
#59 = PERSON_AND_ORGANIZATION_ROLE ( 'creator' ) ;
#60 = CC_DESIGN_PERSON_AND_ORGANIZATION_ASSIGNMENT ( #70, #109, ( #84 ) ) ;
#61 = ORIENTED_EDGE ( 'NONE', *, *, #158, .F. ) ;
#62 = APPROVAL_ROLE ( '' ) ;
#63 = APPROVAL_PERSON_ORGANIZATION ( #83, #119, #168 ) ;
#64 = AXIS2_PLACEMENT_3D ( 'NONE', #43, #53, #81 ) ;
#65 = CARTESIAN_POINT ( 'NONE',  ( -3.000000000000000000, 0.000000000000000000, 12.69999999999999929 ) ) ;
#66 = ADVANCED_FACE ( 'NONE', ( #107 ), #67, .F. ) ;
#67 = PLANE ( 'NONE',  #64 ) ;
#68 = LINE ( 'NONE', #65, #72 ) ;
#69 = CC_DESIGN_APPROVAL ( #115, ( #80 ) ) ;
#70 = PERSON_AND_ORGANIZATION ( #89, #116 ) ;
#71 = MECHANICAL_CONTEXT ( 'NONE', #96, 'mechanical' ) ;
#72 = VECTOR ( 'NONE', #18, 1000.000000000000000 ) ;
#73 = PERSON_AND_ORGANIZATION ( #89, #116 ) ;
#74 = ORIENTED_EDGE ( 'NONE', *, *, #75, .T. ) ;
#75 = EDGE_CURVE ( 'NONE', #38, #22, #91, .T. ) ;
#76 = UNCERTAINTY_MEASURE_WITH_UNIT (LENGTH_MEASURE( 1.000000000000000082E-05 ), #1, 'distance_accuracy_value', 'NONE');
#77 = ADVANCED_FACE ( 'NONE', ( #42 ), #82, .F. ) ;
#78 = CIRCLE ( 'NONE', #122, 12.69999999999999929 ) ;
#79 = CARTESIAN_POINT ( 'NONE',  ( -3.000000000000000888, 12.69999999999999929, 0.000000000000000000 ) ) ;
#80 = PRODUCT_DEFINITION ( 'UNKNOWN', '', #113, #52 ) ;
#81 = DIRECTION ( 'NONE',  ( -0.000000000000000000, 0.000000000000000000, 1.000000000000000000 ) ) ;
#82 = PLANE ( 'NONE',  #41 ) ;
#83 = PERSON_AND_ORGANIZATION ( #89, #116 ) ;
#84 = SECURITY_CLASSIFICATION ( '', '', #139 ) ;
#85 = SHAPE_DEFINITION_REPRESENTATION ( #112, #164 ) ;
#86 = CIRCLE ( 'NONE', #19, 12.69999999999999929 ) ;
#87 = ORIENTED_EDGE ( 'NONE', *, *, #102, .F. ) ;
#88 = CC_DESIGN_PERSON_AND_ORGANIZATION_ASSIGNMENT ( #128, #153, ( #113 ) ) ;
#89 = PERSON ( 'UNSPECIFIED', 'UNSPECIFIED', 'UNSPECIFIED', ('UNSPECIFIED'), ('UNSPECIFIED'), ('UNSPECIFIED') ) ;
#90 = ORIENTED_EDGE ( 'NONE', *, *, #105, .T. ) ;
#91 = CIRCLE ( 'NONE', #16, 12.69999999999999929 ) ;
#92 = DIRECTION ( 'NONE',  ( 1.000000000000000000, 0.000000000000000000, 0.000000000000000000 ) ) ;
#93 = CARTESIAN_POINT ( 'NONE',  ( -3.000000000000000000, 1.555301434917138433E-15, -12.69999999999999929 ) ) ;
#94 = DIRECTION ( 'NONE',  ( -1.000000000000000000, -0.000000000000000000, -0.000000000000000000 ) ) ;
#95 = PERSON_AND_ORGANIZATION ( #89, #116 ) ;
#96 = APPLICATION_CONTEXT ( 'configuration controlled 3d designs of mechanical parts and assemblies' ) ;
#97 = COORDINATED_UNIVERSAL_TIME_OFFSET ( 8, 0, .AHEAD. ) ;
#98 =( GEOMETRIC_REPRESENTATION_CONTEXT ( 3 ) GLOBAL_UNCERTAINTY_ASSIGNED_CONTEXT ( ( #76 ) ) GLOBAL_UNIT_ASSIGNED_CONTEXT ( ( #1, #135, #118 ) ) REPRESENTATION_CONTEXT ( 'NONE', 'WORKASPACE' ) );
#99 = LOCAL_TIME ( 17, 18, 19.00000000000000000, #29 ) ;
#100 = DATE_TIME_ROLE ( 'classification_date' ) ;
#101 = DIRECTION ( 'NONE',  ( -1.000000000000000000, -0.000000000000000000, -0.000000000000000000 ) ) ;
#102 = EDGE_CURVE ( 'NONE', #131, #38, #150, .T. ) ;
#103 = VERTEX_POINT ( 'NONE', #26 ) ;
#104 = DIRECTION ( 'NONE',  ( 0.000000000000000000, 0.000000000000000000, 1.000000000000000000 ) ) ;
#105 = EDGE_CURVE ( 'NONE', #103, #131, #86, .T. ) ;
#106 = CARTESIAN_POINT ( 'NONE',  ( 3.000000000000001776, 1.555301434917138433E-15, -12.69999999999999929 ) ) ;
#107 = FACE_OUTER_BOUND ( 'NONE', #143, .T. ) ;
#108 = CC_DESIGN_PERSON_AND_ORGANIZATION_ASSIGNMENT ( #95, #59, ( #80 ) ) ;
#109 = PERSON_AND_ORGANIZATION_ROLE ( 'classification_officer' ) ;
#110 = DATE_AND_TIME ( #21, #99 ) ;
#111 = DIRECTION ( 'NONE',  ( 0.000000000000000000, 0.000000000000000000, 1.000000000000000000 ) ) ;
#112 = PRODUCT_DEFINITION_SHAPE ( 'NONE', 'NONE',  #80 ) ;
#113 = PRODUCT_DEFINITION_FORMATION_WITH_SPECIFIED_SOURCE ( 'ANY', '', #144, .NOT_KNOWN. ) ;
#114 = CYLINDRICAL_SURFACE ( 'NONE', #14, 12.69999999999999929 ) ;
#115 = APPROVAL ( #9, 'UNSPECIFIED' ) ;
#116 = ORGANIZATION ( 'UNSPECIFIED', 'UNSPECIFIED', '' ) ;
#117 = VECTOR ( 'NONE', #137, 1000.000000000000000 ) ;
#118 =( NAMED_UNIT ( * ) SI_UNIT ( $, .STERADIAN. ) SOLID_ANGLE_UNIT ( ) );
#119 = APPROVAL ( #45, 'UNSPECIFIED' ) ;
#120 = DIRECTION ( 'NONE',  ( 0.000000000000000000, 0.000000000000000000, 1.000000000000000000 ) ) ;
#121 = DIRECTION ( 'NONE',  ( 0.000000000000000000, 0.000000000000000000, 1.000000000000000000 ) ) ;
#122 = AXIS2_PLACEMENT_3D ( 'NONE', #170, #127, #155 ) ;
#123 = CARTESIAN_POINT ( 'NONE',  ( -3.000000000000001776, 0.000000000000000000, 0.000000000000000000 ) ) ;
#124 = CARTESIAN_POINT ( 'NONE',  ( 0.000000000000000000, 0.000000000000000000, 0.000000000000000000 ) ) ;
#125 = PERSON_AND_ORGANIZATION_ROLE ( 'design_owner' ) ;
#126 = ORIENTED_EDGE ( 'NONE', *, *, #37, .F. ) ;
#127 = DIRECTION ( 'NONE',  ( -1.000000000000000000, -0.000000000000000000, -0.000000000000000000 ) ) ;
#128 = PERSON_AND_ORGANIZATION ( #89, #116 ) ;
#129 = EDGE_LOOP ( 'NONE', ( #87, #12, #51, #15 ) ) ;
#130 = APPROVAL ( #47, 'UNSPECIFIED' ) ;
#131 = VERTEX_POINT ( 'NONE', #106 ) ;
#132 = LOCAL_TIME ( 17, 18, 19.00000000000000000, #141 ) ;
#133 = DIRECTION ( 'NONE',  ( 0.000000000000000000, 0.000000000000000000, -1.000000000000000000 ) ) ;
#134 = ADVANCED_FACE ( 'NONE', ( #149 ), #25, .T. ) ;
#135 =( NAMED_UNIT ( * ) PLANE_ANGLE_UNIT ( ) SI_UNIT ( $, .RADIAN. ) );
#136 = APPLICATION_PROTOCOL_DEFINITION ( 'international standard', 'config_control_design', 1994, #96 ) ;
#137 = DIRECTION ( 'NONE',  ( -1.000000000000000000, -0.000000000000000000, -0.000000000000000000 ) ) ;
#138 = MANIFOLD_SOLID_BREP ( 'Ðý×', #35 ) ;
#139 = SECURITY_CLASSIFICATION_LEVEL ( 'unclassified' ) ;
#140 = DATE_AND_TIME ( #32, #40 ) ;
#141 = COORDINATED_UNIVERSAL_TIME_OFFSET ( 8, 0, .AHEAD. ) ;
#142 = PRODUCT_RELATED_PRODUCT_CATEGORY ( 'detail', '', ( #144 ) ) ;
#143 = EDGE_LOOP ( 'NONE', ( #50, #49 ) ) ;
#144 = PRODUCT ( 'Q-OZHWP-R2-25.4-2020-M', 'Q-OZHWP-R2-25.4-2020-M', '', ( #71 ) ) ;
#145 = EDGE_LOOP ( 'NONE', ( #11, #74 ) ) ;
#146 = DATE_AND_TIME ( #5, #132 ) ;
#147 = APPLICATION_CONTEXT ( 'configuration controlled 3d designs of mechanical parts and assemblies' ) ;
#148 = AXIS2_PLACEMENT_3D ( 'NONE', #124, #48, #34 ) ;
#149 = FACE_OUTER_BOUND ( 'NONE', #39, .T. ) ;
#150 = LINE ( 'NONE', #93, #117 ) ;
#151 = AXIS2_PLACEMENT_3D ( 'NONE', #163, #17, #121 ) ;
#152 = APPROVAL_DATE_TIME ( #146, #115 ) ;
#153 = PERSON_AND_ORGANIZATION_ROLE ( 'design_supplier' ) ;
#154 = APPROVAL_DATE_TIME ( #8, #119 ) ;
#155 = DIRECTION ( 'NONE',  ( 0.000000000000000000, 0.000000000000000000, 1.000000000000000000 ) ) ;
#156 = CIRCLE ( 'NONE', #7, 12.69999999999999929 ) ;
#157 = CARTESIAN_POINT ( 'NONE',  ( -3.000000000000000000, 0.000000000000000000, 0.000000000000000000 ) ) ;
#158 = EDGE_CURVE ( 'NONE', #103, #22, #68, .T. ) ;
#159 = DATE_AND_TIME ( #171, #162 ) ;
#160 = CARTESIAN_POINT ( 'NONE',  ( -3.000000000000001776, 0.000000000000000000, 12.69999999999999929 ) ) ;
#161 = CC_DESIGN_PERSON_AND_ORGANIZATION_ASSIGNMENT ( #167, #58, ( #113 ) ) ;
#162 = LOCAL_TIME ( 17, 18, 19.00000000000000000, #166 ) ;
#163 = CARTESIAN_POINT ( 'NONE',  ( -3.000000000000000000, 0.000000000000000000, 0.000000000000000000 ) ) ;
#164 = ADVANCED_BREP_SHAPE_REPRESENTATION ( 'Q-OZHWP-R2-25.4-2020-M', ( #138, #148 ), #98 ) ;
#165 = PERSON_AND_ORGANIZATION ( #89, #116 ) ;
#166 = COORDINATED_UNIVERSAL_TIME_OFFSET ( 8, 0, .AHEAD. ) ;
#167 = PERSON_AND_ORGANIZATION ( #89, #116 ) ;
#168 = APPROVAL_ROLE ( '' ) ;
#169 = LOCAL_TIME ( 17, 18, 19.00000000000000000, #97 ) ;
#170 = CARTESIAN_POINT ( 'NONE',  ( -3.000000000000001776, 0.000000000000000000, 0.000000000000000000 ) ) ;
#171 = CALENDAR_DATE ( 2020, 22, 12 ) ;
#172 = CC_DESIGN_SECURITY_CLASSIFICATION ( #84, ( #113 ) ) ;
#173 = ORIENTED_EDGE ( 'NONE', *, *, #102, .T. ) ;
#174 = CC_DESIGN_DATE_AND_TIME_ASSIGNMENT ( #159, #100, ( #84 ) ) ;
#175 = APPROVAL_PERSON_ORGANIZATION ( #73, #130, #30 ) ;
ENDSEC;
END-ISO-10303-21;
